ISO-10303-21;
HEADER;
/* Generated by software containing ST-Developer
 * from STEP Tools, Inc. (www.steptools.com) 
 */
/* OPTION: strings as raw bytes, not using required /X/ escapes */

FILE_DESCRIPTION(
/* description */ ('Unknown'),
/* implementation_level */ '2;1');

FILE_NAME(
/* name */ 'Axle (long)',
/* time_stamp */ '2020-05-03T11:45:29+01:00',
/* author */ ('Unknown'),
/* organization */ ('Unknown'),
/* preprocessor_version */ 'ST-DEVELOPER v16.7',
/* originating_system */ 'Solid Edge',
/* authorisation */ 'Unknown');

FILE_SCHEMA (('AUTOMOTIVE_DESIGN {1 0 10303 214 3 1 1}'));
ENDSEC;

DATA;
#10=PROPERTY_DEFINITION_REPRESENTATION(#14,#12);
#11=PROPERTY_DEFINITION_REPRESENTATION(#15,#13);
#12=REPRESENTATION('',(#16),#566);
#13=REPRESENTATION('',(#17),#566);
#14=PROPERTY_DEFINITION('pmi validation property','',#579);
#15=PROPERTY_DEFINITION('pmi validation property','',#579);
#16=VALUE_REPRESENTATION_ITEM('number of annotations',COUNT_MEASURE(0.));
#17=VALUE_REPRESENTATION_ITEM('number of views',COUNT_MEASURE(0.));
#18=LINE('',#502,#26);
#19=LINE('',#505,#27);
#20=LINE('',#507,#28);
#21=LINE('',#509,#29);
#22=LINE('',#513,#30);
#23=LINE('',#517,#31);
#24=LINE('',#519,#32);
#25=LINE('',#521,#33);
#26=VECTOR('',#414,1000.);
#27=VECTOR('',#415,1000.);
#28=VECTOR('',#416,1000.);
#29=VECTOR('',#417,1000.);
#30=VECTOR('',#422,1000.);
#31=VECTOR('',#427,1000.);
#32=VECTOR('',#428,1000.);
#33=VECTOR('',#429,1000.);
#34=CONTEXT_DEPENDENT_SHAPE_REPRESENTATION(#44,#581);
#35=CONTEXT_DEPENDENT_SHAPE_REPRESENTATION(#45,#583);
#36=CONTEXT_DEPENDENT_SHAPE_REPRESENTATION(#46,#585);
#37=CONTEXT_DEPENDENT_SHAPE_REPRESENTATION(#47,#586);
#38=CONTEXT_DEPENDENT_SHAPE_REPRESENTATION(#48,#588);
#39=NEXT_ASSEMBLY_USAGE_OCCURRENCE('Eccentric drive pin',
'Eccentric drive pin','Eccentric drive pin',#589,#590,'');
#40=NEXT_ASSEMBLY_USAGE_OCCURRENCE('Crank web, large hole',
'Crank web, large hole','Crank web, large hole',#589,#591,'');
#41=NEXT_ASSEMBLY_USAGE_OCCURRENCE('Crank Pin','Crank Pin','Crank Pin',
#589,#592,'');
#42=NEXT_ASSEMBLY_USAGE_OCCURRENCE('Crank web, large hole',
'Crank web, large hole','Crank web, large hole',#589,#591,'');
#43=NEXT_ASSEMBLY_USAGE_OCCURRENCE('Split Axle (long)',
'Split Axle (long)','Split Axle (long)',#589,#593,'');
#44=(
REPRESENTATION_RELATIONSHIP(' ',' ',#350,#351)
REPRESENTATION_RELATIONSHIP_WITH_TRANSFORMATION(#49)
SHAPE_REPRESENTATION_RELATIONSHIP()
);
#45=(
REPRESENTATION_RELATIONSHIP(' ',' ',#352,#351)
REPRESENTATION_RELATIONSHIP_WITH_TRANSFORMATION(#50)
SHAPE_REPRESENTATION_RELATIONSHIP()
);
#46=(
REPRESENTATION_RELATIONSHIP(' ',' ',#353,#351)
REPRESENTATION_RELATIONSHIP_WITH_TRANSFORMATION(#51)
SHAPE_REPRESENTATION_RELATIONSHIP()
);
#47=(
REPRESENTATION_RELATIONSHIP(' ',' ',#352,#351)
REPRESENTATION_RELATIONSHIP_WITH_TRANSFORMATION(#52)
SHAPE_REPRESENTATION_RELATIONSHIP()
);
#48=(
REPRESENTATION_RELATIONSHIP(' ',' ',#354,#351)
REPRESENTATION_RELATIONSHIP_WITH_TRANSFORMATION(#53)
SHAPE_REPRESENTATION_RELATIONSHIP()
);
#49=ITEM_DEFINED_TRANSFORMATION(' ',' ',#355,#361);
#50=ITEM_DEFINED_TRANSFORMATION(' ',' ',#355,#381);
#51=ITEM_DEFINED_TRANSFORMATION(' ',' ',#355,#387);
#52=ITEM_DEFINED_TRANSFORMATION(' ',' ',#355,#388);
#53=ITEM_DEFINED_TRANSFORMATION(' ',' ',#355,#397);
#54=SHAPE_REPRESENTATION_RELATIONSHIP('','',#350,#58);
#55=SHAPE_REPRESENTATION_RELATIONSHIP('','',#352,#59);
#56=SHAPE_REPRESENTATION_RELATIONSHIP('','',#353,#60);
#57=SHAPE_REPRESENTATION_RELATIONSHIP('','',#354,#61);
#58=ADVANCED_BREP_SHAPE_REPRESENTATION('',(#341),#567);
#59=ADVANCED_BREP_SHAPE_REPRESENTATION('',(#342),#568);
#60=ADVANCED_BREP_SHAPE_REPRESENTATION('',(#343),#569);
#61=ADVANCED_BREP_SHAPE_REPRESENTATION('',(#344),#570);
#62=CYLINDRICAL_SURFACE('',#358,0.79375);
#63=CYLINDRICAL_SURFACE('',#363,14.3);
#64=CYLINDRICAL_SURFACE('',#367,3.175);
#65=CYLINDRICAL_SURFACE('',#370,3.175);
#66=CYLINDRICAL_SURFACE('',#373,0.79375);
#67=CYLINDRICAL_SURFACE('',#376,14.3);
#68=CYLINDRICAL_SURFACE('',#384,3.175);
#69=CYLINDRICAL_SURFACE('',#389,3.175);
#70=CYLINDRICAL_SURFACE('',#394,2.38125);
#71=ORIENTED_EDGE('',*,*,#123,.T.);
#72=ORIENTED_EDGE('',*,*,#124,.T.);
#73=ORIENTED_EDGE('',*,*,#123,.F.);
#74=ORIENTED_EDGE('',*,*,#124,.F.);
#75=ORIENTED_EDGE('',*,*,#125,.T.);
#76=ORIENTED_EDGE('',*,*,#126,.F.);
#77=ORIENTED_EDGE('',*,*,#127,.F.);
#78=ORIENTED_EDGE('',*,*,#128,.T.);
#79=ORIENTED_EDGE('',*,*,#129,.T.);
#80=ORIENTED_EDGE('',*,*,#130,.F.);
#81=ORIENTED_EDGE('',*,*,#131,.F.);
#82=ORIENTED_EDGE('',*,*,#126,.T.);
#83=ORIENTED_EDGE('',*,*,#132,.F.);
#84=ORIENTED_EDGE('',*,*,#133,.F.);
#85=ORIENTED_EDGE('',*,*,#134,.T.);
#86=ORIENTED_EDGE('',*,*,#130,.T.);
#87=ORIENTED_EDGE('',*,*,#135,.T.);
#88=ORIENTED_EDGE('',*,*,#136,.F.);
#89=ORIENTED_EDGE('',*,*,#137,.T.);
#90=ORIENTED_EDGE('',*,*,#138,.F.);
#91=ORIENTED_EDGE('',*,*,#139,.T.);
#92=ORIENTED_EDGE('',*,*,#140,.F.);
#93=ORIENTED_EDGE('',*,*,#141,.T.);
#94=ORIENTED_EDGE('',*,*,#128,.F.);
#95=ORIENTED_EDGE('',*,*,#142,.F.);
#96=ORIENTED_EDGE('',*,*,#133,.T.);
#97=ORIENTED_EDGE('',*,*,#139,.F.);
#98=ORIENTED_EDGE('',*,*,#137,.F.);
#99=ORIENTED_EDGE('',*,*,#135,.F.);
#100=ORIENTED_EDGE('',*,*,#127,.T.);
#101=ORIENTED_EDGE('',*,*,#131,.T.);
#102=ORIENTED_EDGE('',*,*,#134,.F.);
#103=ORIENTED_EDGE('',*,*,#142,.T.);
#104=ORIENTED_EDGE('',*,*,#140,.T.);
#105=ORIENTED_EDGE('',*,*,#138,.T.);
#106=ORIENTED_EDGE('',*,*,#136,.T.);
#107=ORIENTED_EDGE('',*,*,#125,.F.);
#108=ORIENTED_EDGE('',*,*,#141,.F.);
#109=ORIENTED_EDGE('',*,*,#132,.T.);
#110=ORIENTED_EDGE('',*,*,#129,.F.);
#111=ORIENTED_EDGE('',*,*,#143,.T.);
#112=ORIENTED_EDGE('',*,*,#144,.T.);
#113=ORIENTED_EDGE('',*,*,#143,.F.);
#114=ORIENTED_EDGE('',*,*,#144,.F.);
#115=ORIENTED_EDGE('',*,*,#145,.F.);
#116=ORIENTED_EDGE('',*,*,#146,.F.);
#117=ORIENTED_EDGE('',*,*,#147,.F.);
#118=ORIENTED_EDGE('',*,*,#146,.T.);
#119=ORIENTED_EDGE('',*,*,#148,.T.);
#120=ORIENTED_EDGE('',*,*,#147,.T.);
#121=ORIENTED_EDGE('',*,*,#145,.T.);
#122=ORIENTED_EDGE('',*,*,#148,.F.);
#123=EDGE_CURVE('',#149,#149,#171,.T.);
#124=EDGE_CURVE('',#150,#150,#172,.T.);
#125=EDGE_CURVE('',#151,#152,#18,.T.);
#126=EDGE_CURVE('',#153,#152,#19,.T.);
#127=EDGE_CURVE('',#154,#153,#20,.T.);
#128=EDGE_CURVE('',#154,#151,#21,.T.);
#129=EDGE_CURVE('',#152,#155,#173,.T.);
#130=EDGE_CURVE('',#156,#155,#22,.T.);
#131=EDGE_CURVE('',#153,#156,#174,.T.);
#132=EDGE_CURVE('',#157,#155,#23,.T.);
#133=EDGE_CURVE('',#158,#157,#24,.T.);
#134=EDGE_CURVE('',#158,#156,#25,.T.);
#135=EDGE_CURVE('',#159,#159,#175,.T.);
#136=EDGE_CURVE('',#160,#160,#176,.T.);
#137=EDGE_CURVE('',#161,#161,#177,.T.);
#138=EDGE_CURVE('',#162,#162,#178,.T.);
#139=EDGE_CURVE('',#163,#163,#179,.T.);
#140=EDGE_CURVE('',#164,#164,#180,.T.);
#141=EDGE_CURVE('',#157,#151,#181,.T.);
#142=EDGE_CURVE('',#158,#154,#182,.T.);
#143=EDGE_CURVE('',#165,#165,#183,.T.);
#144=EDGE_CURVE('',#166,#166,#184,.T.);
#145=EDGE_CURVE('',#167,#167,#185,.F.);
#146=EDGE_CURVE('',#168,#168,#186,.T.);
#147=EDGE_CURVE('',#169,#169,#187,.T.);
#148=EDGE_CURVE('',#170,#170,#188,.F.);
#149=VERTEX_POINT('',#495);
#150=VERTEX_POINT('',#498);
#151=VERTEX_POINT('',#503);
#152=VERTEX_POINT('',#504);
#153=VERTEX_POINT('',#506);
#154=VERTEX_POINT('',#508);
#155=VERTEX_POINT('',#512);
#156=VERTEX_POINT('',#514);
#157=VERTEX_POINT('',#518);
#158=VERTEX_POINT('',#520);
#159=VERTEX_POINT('',#524);
#160=VERTEX_POINT('',#526);
#161=VERTEX_POINT('',#529);
#162=VERTEX_POINT('',#531);
#163=VERTEX_POINT('',#534);
#164=VERTEX_POINT('',#536);
#165=VERTEX_POINT('',#545);
#166=VERTEX_POINT('',#548);
#167=VERTEX_POINT('',#554);
#168=VERTEX_POINT('',#556);
#169=VERTEX_POINT('',#559);
#170=VERTEX_POINT('',#562);
#171=CIRCLE('',#357,0.79375);
#172=CIRCLE('',#359,0.79375);
#173=CIRCLE('',#364,14.3);
#174=CIRCLE('',#365,14.3);
#175=CIRCLE('',#368,3.175);
#176=CIRCLE('',#369,3.175);
#177=CIRCLE('',#371,3.175);
#178=CIRCLE('',#372,3.175);
#179=CIRCLE('',#374,0.79375);
#180=CIRCLE('',#375,0.79375);
#181=CIRCLE('',#377,14.3);
#182=CIRCLE('',#378,14.3);
#183=CIRCLE('',#383,3.175);
#184=CIRCLE('',#385,3.175);
#185=CIRCLE('',#390,3.175);
#186=CIRCLE('',#391,3.175);
#187=CIRCLE('',#393,2.38125);
#188=CIRCLE('',#395,2.38125);
#189=EDGE_LOOP('',(#71));
#190=EDGE_LOOP('',(#72));
#191=EDGE_LOOP('',(#73));
#192=EDGE_LOOP('',(#74));
#193=EDGE_LOOP('',(#75,#76,#77,#78));
#194=EDGE_LOOP('',(#79,#80,#81,#82));
#195=EDGE_LOOP('',(#83,#84,#85,#86));
#196=EDGE_LOOP('',(#87));
#197=EDGE_LOOP('',(#88));
#198=EDGE_LOOP('',(#89));
#199=EDGE_LOOP('',(#90));
#200=EDGE_LOOP('',(#91));
#201=EDGE_LOOP('',(#92));
#202=EDGE_LOOP('',(#93,#94,#95,#96));
#203=EDGE_LOOP('',(#97));
#204=EDGE_LOOP('',(#98));
#205=EDGE_LOOP('',(#99));
#206=EDGE_LOOP('',(#100,#101,#102,#103));
#207=EDGE_LOOP('',(#104));
#208=EDGE_LOOP('',(#105));
#209=EDGE_LOOP('',(#106));
#210=EDGE_LOOP('',(#107,#108,#109,#110));
#211=EDGE_LOOP('',(#111));
#212=EDGE_LOOP('',(#112));
#213=EDGE_LOOP('',(#113));
#214=EDGE_LOOP('',(#114));
#215=EDGE_LOOP('',(#115));
#216=EDGE_LOOP('',(#116));
#217=EDGE_LOOP('',(#117));
#218=EDGE_LOOP('',(#118));
#219=EDGE_LOOP('',(#119));
#220=EDGE_LOOP('',(#120));
#221=EDGE_LOOP('',(#121));
#222=EDGE_LOOP('',(#122));
#223=FACE_BOUND('',#189,.T.);
#224=FACE_BOUND('',#190,.T.);
#225=FACE_BOUND('',#191,.T.);
#226=FACE_BOUND('',#192,.T.);
#227=FACE_BOUND('',#193,.T.);
#228=FACE_BOUND('',#194,.T.);
#229=FACE_BOUND('',#195,.T.);
#230=FACE_BOUND('',#196,.T.);
#231=FACE_BOUND('',#197,.T.);
#232=FACE_BOUND('',#198,.T.);
#233=FACE_BOUND('',#199,.T.);
#234=FACE_BOUND('',#200,.T.);
#235=FACE_BOUND('',#201,.T.);
#236=FACE_BOUND('',#202,.T.);
#237=FACE_BOUND('',#203,.T.);
#238=FACE_BOUND('',#204,.T.);
#239=FACE_BOUND('',#205,.T.);
#240=FACE_BOUND('',#206,.T.);
#241=FACE_BOUND('',#207,.T.);
#242=FACE_BOUND('',#208,.T.);
#243=FACE_BOUND('',#209,.T.);
#244=FACE_BOUND('',#210,.T.);
#245=FACE_BOUND('',#211,.T.);
#246=FACE_BOUND('',#212,.T.);
#247=FACE_BOUND('',#213,.T.);
#248=FACE_BOUND('',#214,.T.);
#249=FACE_BOUND('',#215,.T.);
#250=FACE_BOUND('',#216,.T.);
#251=FACE_BOUND('',#217,.T.);
#252=FACE_BOUND('',#218,.T.);
#253=FACE_BOUND('',#219,.T.);
#254=FACE_BOUND('',#220,.T.);
#255=FACE_BOUND('',#221,.T.);
#256=FACE_BOUND('',#222,.T.);
#257=PLANE('',#356);
#258=PLANE('',#360);
#259=PLANE('',#362);
#260=PLANE('',#366);
#261=PLANE('',#379);
#262=PLANE('',#380);
#263=PLANE('',#382);
#264=PLANE('',#386);
#265=PLANE('',#392);
#266=PLANE('',#396);
#267=ADVANCED_FACE('',(#223),#257,.T.);
#268=ADVANCED_FACE('',(#224,#225),#62,.T.);
#269=ADVANCED_FACE('',(#226),#258,.T.);
#270=ADVANCED_FACE('',(#227),#259,.F.);
#271=ADVANCED_FACE('',(#228),#63,.T.);
#272=ADVANCED_FACE('',(#229),#260,.T.);
#273=ADVANCED_FACE('',(#230,#231),#64,.F.);
#274=ADVANCED_FACE('',(#232,#233),#65,.F.);
#275=ADVANCED_FACE('',(#234,#235),#66,.F.);
#276=ADVANCED_FACE('',(#236),#67,.T.);
#277=ADVANCED_FACE('',(#237,#238,#239,#240),#261,.T.);
#278=ADVANCED_FACE('',(#241,#242,#243,#244),#262,.F.);
#279=ADVANCED_FACE('',(#245),#263,.T.);
#280=ADVANCED_FACE('',(#246,#247),#68,.T.);
#281=ADVANCED_FACE('',(#248),#264,.T.);
#282=ADVANCED_FACE('',(#249,#250),#69,.T.);
#283=ADVANCED_FACE('',(#251,#252),#265,.T.);
#284=ADVANCED_FACE('',(#253,#254),#70,.F.);
#285=ADVANCED_FACE('',(#255,#256),#266,.F.);
#286=CLOSED_SHELL('',(#267,#268,#269));
#287=CLOSED_SHELL('',(#270,#271,#272,#273,#274,#275,#276,#277,#278));
#288=CLOSED_SHELL('',(#279,#280,#281));
#289=CLOSED_SHELL('',(#282,#283,#284,#285));
#290=STYLED_ITEM('',(#297),#341);
#291=STYLED_ITEM('',(#298),#342);
#292=STYLED_ITEM('',(#299),#343);
#293=STYLED_ITEM('',(#300),#282);
#294=STYLED_ITEM('',(#301),#283);
#295=STYLED_ITEM('',(#302),#284);
#296=STYLED_ITEM('',(#303),#285);
#297=PRESENTATION_STYLE_ASSIGNMENT((#304));
#298=PRESENTATION_STYLE_ASSIGNMENT((#305));
#299=PRESENTATION_STYLE_ASSIGNMENT((#306));
#300=PRESENTATION_STYLE_ASSIGNMENT((#307));
#301=PRESENTATION_STYLE_ASSIGNMENT((#308));
#302=PRESENTATION_STYLE_ASSIGNMENT((#309));
#303=PRESENTATION_STYLE_ASSIGNMENT((#310));
#304=SURFACE_STYLE_USAGE(.BOTH.,#311);
#305=SURFACE_STYLE_USAGE(.BOTH.,#312);
#306=SURFACE_STYLE_USAGE(.BOTH.,#313);
#307=SURFACE_STYLE_USAGE(.BOTH.,#314);
#308=SURFACE_STYLE_USAGE(.BOTH.,#315);
#309=SURFACE_STYLE_USAGE(.BOTH.,#316);
#310=SURFACE_STYLE_USAGE(.BOTH.,#317);
#311=SURFACE_SIDE_STYLE('',(#318));
#312=SURFACE_SIDE_STYLE('',(#319));
#313=SURFACE_SIDE_STYLE('',(#320));
#314=SURFACE_SIDE_STYLE('',(#321));
#315=SURFACE_SIDE_STYLE('',(#322));
#316=SURFACE_SIDE_STYLE('',(#323));
#317=SURFACE_SIDE_STYLE('',(#324));
#318=SURFACE_STYLE_FILL_AREA(#325);
#319=SURFACE_STYLE_FILL_AREA(#326);
#320=SURFACE_STYLE_FILL_AREA(#327);
#321=SURFACE_STYLE_FILL_AREA(#328);
#322=SURFACE_STYLE_FILL_AREA(#329);
#323=SURFACE_STYLE_FILL_AREA(#330);
#324=SURFACE_STYLE_FILL_AREA(#331);
#325=FILL_AREA_STYLE('',(#332));
#326=FILL_AREA_STYLE('',(#333));
#327=FILL_AREA_STYLE('',(#334));
#328=FILL_AREA_STYLE('',(#335));
#329=FILL_AREA_STYLE('',(#336));
#330=FILL_AREA_STYLE('',(#337));
#331=FILL_AREA_STYLE('',(#338));
#332=FILL_AREA_STYLE_COLOUR('',#339);
#333=FILL_AREA_STYLE_COLOUR('',#339);
#334=FILL_AREA_STYLE_COLOUR('',#339);
#335=FILL_AREA_STYLE_COLOUR('',#339);
#336=FILL_AREA_STYLE_COLOUR('',#339);
#337=FILL_AREA_STYLE_COLOUR('',#339);
#338=FILL_AREA_STYLE_COLOUR('',#340);
#339=COLOUR_RGB('',0.690196096897125,0.690196096897125,0.690196096897125);
#340=COLOUR_RGB('',0.506983280181885,0.531564235687256,0.550000011920929);
#341=MANIFOLD_SOLID_BREP('Eccentric drive pin',#286);
#342=MANIFOLD_SOLID_BREP('Crank web, large hole',#287);
#343=MANIFOLD_SOLID_BREP('Crank Pin',#288);
#344=MANIFOLD_SOLID_BREP('Split Axle (long)',#289);
#345=SHAPE_DEFINITION_REPRESENTATION(#580,#350);
#346=SHAPE_DEFINITION_REPRESENTATION(#579,#351);
#347=SHAPE_DEFINITION_REPRESENTATION(#582,#352);
#348=SHAPE_DEFINITION_REPRESENTATION(#584,#353);
#349=SHAPE_DEFINITION_REPRESENTATION(#587,#354);
#350=SHAPE_REPRESENTATION('Eccentric drive pin',(#355),#567);
#351=SHAPE_REPRESENTATION('Axle (long)',(#355,#361,#381,#387,#388,#397),
#566);
#352=SHAPE_REPRESENTATION('Crank web, large hole',(#355),#568);
#353=SHAPE_REPRESENTATION('Crank Pin',(#355),#569);
#354=SHAPE_REPRESENTATION('Split Axle (long)',(#355),#570);
#355=AXIS2_PLACEMENT_3D('',#492,#398,#399);
#356=AXIS2_PLACEMENT_3D('',#493,#400,#401);
#357=AXIS2_PLACEMENT_3D('',#494,#402,#403);
#358=AXIS2_PLACEMENT_3D('',#496,#404,#405);
#359=AXIS2_PLACEMENT_3D('',#497,#406,#407);
#360=AXIS2_PLACEMENT_3D('',#499,#408,#409);
#361=AXIS2_PLACEMENT_3D('',#500,#410,#411);
#362=AXIS2_PLACEMENT_3D('',#501,#412,#413);
#363=AXIS2_PLACEMENT_3D('',#510,#418,#419);
#364=AXIS2_PLACEMENT_3D('',#511,#420,#421);
#365=AXIS2_PLACEMENT_3D('',#515,#423,#424);
#366=AXIS2_PLACEMENT_3D('',#516,#425,#426);
#367=AXIS2_PLACEMENT_3D('',#522,#430,#431);
#368=AXIS2_PLACEMENT_3D('',#523,#432,#433);
#369=AXIS2_PLACEMENT_3D('',#525,#434,#435);
#370=AXIS2_PLACEMENT_3D('',#527,#436,#437);
#371=AXIS2_PLACEMENT_3D('',#528,#438,#439);
#372=AXIS2_PLACEMENT_3D('',#530,#440,#441);
#373=AXIS2_PLACEMENT_3D('',#532,#442,#443);
#374=AXIS2_PLACEMENT_3D('',#533,#444,#445);
#375=AXIS2_PLACEMENT_3D('',#535,#446,#447);
#376=AXIS2_PLACEMENT_3D('',#537,#448,#449);
#377=AXIS2_PLACEMENT_3D('',#538,#450,#451);
#378=AXIS2_PLACEMENT_3D('',#539,#452,#453);
#379=AXIS2_PLACEMENT_3D('',#540,#454,#455);
#380=AXIS2_PLACEMENT_3D('',#541,#456,#457);
#381=AXIS2_PLACEMENT_3D('',#542,#458,#459);
#382=AXIS2_PLACEMENT_3D('',#543,#460,#461);
#383=AXIS2_PLACEMENT_3D('',#544,#462,#463);
#384=AXIS2_PLACEMENT_3D('',#546,#464,#465);
#385=AXIS2_PLACEMENT_3D('',#547,#466,#467);
#386=AXIS2_PLACEMENT_3D('',#549,#468,#469);
#387=AXIS2_PLACEMENT_3D('',#550,#470,#471);
#388=AXIS2_PLACEMENT_3D('',#551,#472,#473);
#389=AXIS2_PLACEMENT_3D('',#552,#474,#475);
#390=AXIS2_PLACEMENT_3D('',#553,#476,#477);
#391=AXIS2_PLACEMENT_3D('',#555,#478,#479);
#392=AXIS2_PLACEMENT_3D('',#557,#480,#481);
#393=AXIS2_PLACEMENT_3D('',#558,#482,#483);
#394=AXIS2_PLACEMENT_3D('',#560,#484,#485);
#395=AXIS2_PLACEMENT_3D('',#561,#486,#487);
#396=AXIS2_PLACEMENT_3D('',#563,#488,#489);
#397=AXIS2_PLACEMENT_3D('',#564,#490,#491);
#398=DIRECTION('',(0.,0.,1.));
#399=DIRECTION('',(1.,0.,0.));
#400=DIRECTION('',(1.,0.,0.));
#401=DIRECTION('',(0.,0.,-1.));
#402=DIRECTION('',(1.,0.,0.));
#403=DIRECTION('',(0.,0.,-1.));
#404=DIRECTION('',(1.,0.,0.));
#405=DIRECTION('',(0.,0.,-1.));
#406=DIRECTION('',(1.,0.,0.));
#407=DIRECTION('',(0.,0.,-1.));
#408=DIRECTION('',(-1.,0.,0.));
#409=DIRECTION('',(0.,0.,1.));
#410=DIRECTION('',(0.,0.,1.));
#411=DIRECTION('',(1.,0.,0.));
#412=DIRECTION('',(0.,1.,0.));
#413=DIRECTION('',(0.,0.,1.));
#414=DIRECTION('',(1.,0.,0.));
#415=DIRECTION('',(0.,0.,-1.));
#416=DIRECTION('',(1.,0.,0.));
#417=DIRECTION('',(0.,0.,-1.));
#418=DIRECTION('',(0.,0.,-1.));
#419=DIRECTION('',(-1.,0.,0.));
#420=DIRECTION('',(0.,0.,1.));
#421=DIRECTION('',(1.,0.,0.));
#422=DIRECTION('',(0.,0.,-1.));
#423=DIRECTION('',(0.,0.,1.));
#424=DIRECTION('',(1.,0.,0.));
#425=DIRECTION('',(0.,1.,0.));
#426=DIRECTION('',(0.,0.,1.));
#427=DIRECTION('',(1.,0.,0.));
#428=DIRECTION('',(0.,0.,-1.));
#429=DIRECTION('',(1.,0.,0.));
#430=DIRECTION('',(0.,0.,-1.));
#431=DIRECTION('',(-1.,0.,0.));
#432=DIRECTION('',(0.,0.,1.));
#433=DIRECTION('',(1.,0.,0.));
#434=DIRECTION('',(0.,0.,1.));
#435=DIRECTION('',(1.,0.,0.));
#436=DIRECTION('',(0.,0.,-1.));
#437=DIRECTION('',(-1.,0.,0.));
#438=DIRECTION('',(0.,0.,1.));
#439=DIRECTION('',(1.,0.,0.));
#440=DIRECTION('',(0.,0.,1.));
#441=DIRECTION('',(1.,0.,0.));
#442=DIRECTION('',(0.,0.,-1.));
#443=DIRECTION('',(-1.,0.,0.));
#444=DIRECTION('',(0.,0.,1.));
#445=DIRECTION('',(1.,0.,0.));
#446=DIRECTION('',(0.,0.,1.));
#447=DIRECTION('',(1.,0.,0.));
#448=DIRECTION('',(0.,0.,-1.));
#449=DIRECTION('',(-1.,0.,0.));
#450=DIRECTION('',(0.,0.,1.));
#451=DIRECTION('',(1.,0.,0.));
#452=DIRECTION('',(0.,0.,1.));
#453=DIRECTION('',(1.,0.,0.));
#454=DIRECTION('',(0.,0.,1.));
#455=DIRECTION('',(1.,0.,0.));
#456=DIRECTION('',(0.,0.,1.));
#457=DIRECTION('',(1.,0.,0.));
#458=DIRECTION('',(1.,3.4059926846641E-17,-7.06788624879728E-18));
#459=DIRECTION('',(3.40171210904512E-17,-0.999982176511931,-0.00597048226366762));
#460=DIRECTION('',(1.,0.,0.));
#461=DIRECTION('',(0.,0.,-1.));
#462=DIRECTION('',(1.,0.,0.));
#463=DIRECTION('',(0.,0.,-1.));
#464=DIRECTION('',(1.,0.,0.));
#465=DIRECTION('',(0.,0.,-1.));
#466=DIRECTION('',(1.,0.,0.));
#467=DIRECTION('',(0.,0.,-1.));
#468=DIRECTION('',(-1.,0.,0.));
#469=DIRECTION('',(0.,0.,1.));
#470=DIRECTION('',(0.,0.,1.));
#471=DIRECTION('',(1.,0.,0.));
#472=DIRECTION('',(1.,1.08697198574348E-15,-1.57005196999638E-15));
#473=DIRECTION('',(1.07757864467136E-15,-0.999982176511931,-0.00597048226367156));
#474=DIRECTION('',(1.,0.,0.));
#475=DIRECTION('',(0.,0.,-1.));
#476=DIRECTION('',(1.,9.41254728438761E-18,-1.57648563418355E-15));
#477=DIRECTION('',(-1.57648563418355E-15,0.,-1.));
#478=DIRECTION('',(1.,0.,0.));
#479=DIRECTION('',(0.,0.,-1.));
#480=DIRECTION('',(1.,0.,0.));
#481=DIRECTION('',(0.,0.,-1.));
#482=DIRECTION('',(1.,0.,0.));
#483=DIRECTION('',(0.,0.,-1.));
#484=DIRECTION('',(1.,0.,0.));
#485=DIRECTION('',(0.,0.,-1.));
#486=DIRECTION('',(1.,9.41254728438761E-18,-1.57648563418355E-15));
#487=DIRECTION('',(-1.57648563418355E-15,0.,-1.));
#488=DIRECTION('',(1.,9.41254728438761E-18,-1.57648563418355E-15));
#489=DIRECTION('',(-1.57648563418355E-15,0.,-1.));
#490=DIRECTION('',(0.,0.,1.));
#491=DIRECTION('',(1.,0.,0.));
#492=CARTESIAN_POINT('',(0.,0.,0.));
#493=CARTESIAN_POINT('',(0.,0.,0.));
#494=CARTESIAN_POINT('',(0.,0.,0.));
#495=CARTESIAN_POINT('',(0.,0.,-0.79375));
#496=CARTESIAN_POINT('',(0.,0.,0.));
#497=CARTESIAN_POINT('',(-6.6,0.,0.));
#498=CARTESIAN_POINT('',(-6.6,0.,-0.79375));
#499=CARTESIAN_POINT('',(-6.6,0.79375,0.));
#500=CARTESIAN_POINT('',(3.67724961568642,2.27508984936478,-3.33168307562664));
#501=CARTESIAN_POINT('',(-8.67361737988404E-16,-5.5,3.1));
#502=CARTESIAN_POINT('',(-8.67361737988404E-16,-5.5,0.));
#503=CARTESIAN_POINT('',(-13.2,-5.5,0.));
#504=CARTESIAN_POINT('',(13.2,-5.5,0.));
#505=CARTESIAN_POINT('',(13.2,-5.5,3.1));
#506=CARTESIAN_POINT('',(13.2,-5.5,3.1));
#507=CARTESIAN_POINT('',(-8.67361737988404E-16,-5.5,3.1));
#508=CARTESIAN_POINT('',(-13.2,-5.5,3.1));
#509=CARTESIAN_POINT('',(-13.2,-5.5,3.1));
#510=CARTESIAN_POINT('',(-1.7347234759768E-15,8.67361737988404E-16,3.1));
#511=CARTESIAN_POINT('',(-1.7347234759768E-15,8.67361737988404E-16,0.));
#512=CARTESIAN_POINT('',(13.2,5.5,0.));
#513=CARTESIAN_POINT('',(13.2,5.5,3.1));
#514=CARTESIAN_POINT('',(13.2,5.5,3.1));
#515=CARTESIAN_POINT('',(-1.7347234759768E-15,8.67361737988404E-16,3.1));
#516=CARTESIAN_POINT('',(-8.67361737988404E-16,5.5,3.1));
#517=CARTESIAN_POINT('',(-8.67361737988404E-16,5.5,0.));
#518=CARTESIAN_POINT('',(-13.2,5.5,0.));
#519=CARTESIAN_POINT('',(-13.2,5.5,3.1));
#520=CARTESIAN_POINT('',(-13.2,5.5,3.1));
#521=CARTESIAN_POINT('',(-8.67361737988404E-16,5.5,3.1));
#522=CARTESIAN_POINT('',(8.8,8.96248741401241E-16,3.1));
#523=CARTESIAN_POINT('',(8.8,8.96248741401241E-16,3.1));
#524=CARTESIAN_POINT('',(11.975,8.96248741401241E-16,3.1));
#525=CARTESIAN_POINT('',(8.8,8.96248741401241E-16,0.));
#526=CARTESIAN_POINT('',(11.975,8.96248741401241E-16,0.));
#527=CARTESIAN_POINT('',(-1.7347234759768E-15,8.67361737988404E-16,3.1));
#528=CARTESIAN_POINT('',(-1.7347234759768E-15,8.67361737988404E-16,3.1));
#529=CARTESIAN_POINT('',(3.175,8.67361737988404E-16,3.1));
#530=CARTESIAN_POINT('',(-1.7347234759768E-15,8.67361737988404E-16,0.));
#531=CARTESIAN_POINT('',(3.175,8.67361737988404E-16,0.));
#532=CARTESIAN_POINT('',(-6.,6.74452866687768E-16,3.1));
#533=CARTESIAN_POINT('',(-6.,6.74452866687768E-16,3.1));
#534=CARTESIAN_POINT('',(-5.20625,6.74452866687768E-16,3.1));
#535=CARTESIAN_POINT('',(-6.,6.74452866687768E-16,0.));
#536=CARTESIAN_POINT('',(-5.20625,6.74452866687768E-16,0.));
#537=CARTESIAN_POINT('',(-1.7347234759768E-15,8.67361737988404E-16,3.1));
#538=CARTESIAN_POINT('',(-1.7347234759768E-15,8.67361737988404E-16,0.));
#539=CARTESIAN_POINT('',(-1.7347234759768E-15,8.67361737988404E-16,3.1));
#540=CARTESIAN_POINT('',(-8.67361737988404E-16,-23.9756572365839,3.1));
#541=CARTESIAN_POINT('',(-8.67361737988404E-16,-23.9756572365839,0.));
#542=CARTESIAN_POINT('',(-2.92275038431358,-3.72480320970681,-3.36750596920865));
#543=CARTESIAN_POINT('',(0.,0.,0.));
#544=CARTESIAN_POINT('',(0.,0.,0.));
#545=CARTESIAN_POINT('',(0.,0.,-3.175));
#546=CARTESIAN_POINT('',(0.,0.,0.));
#547=CARTESIAN_POINT('',(-11.,0.,0.));
#548=CARTESIAN_POINT('',(-11.,0.,-3.175));
#549=CARTESIAN_POINT('',(-11.,3.175,0.));
#550=CARTESIAN_POINT('',(0.177249615686421,-12.5246463630118,-3.42004621312892));
#551=CARTESIAN_POINT('',(-10.8227503843136,-3.72480320970683,-3.36750596920862));
#552=CARTESIAN_POINT('',(0.,0.,0.));
#553=CARTESIAN_POINT('',(-14.1,0.,0.));
#554=CARTESIAN_POINT('',(-14.1,0.,-3.175));
#555=CARTESIAN_POINT('',(0.,0.,0.));
#556=CARTESIAN_POINT('',(0.,0.,-3.175));
#557=CARTESIAN_POINT('',(0.,0.,0.));
#558=CARTESIAN_POINT('',(0.,0.,0.));
#559=CARTESIAN_POINT('',(0.,0.,-2.38125));
#560=CARTESIAN_POINT('',(-19.2,0.,0.));
#561=CARTESIAN_POINT('',(-14.1,0.,0.));
#562=CARTESIAN_POINT('',(-14.1,0.,-2.38125));
#563=CARTESIAN_POINT('',(-14.1,3.77164287942847,-4.47756127884348));
#564=CARTESIAN_POINT('',(11.1772496156864,-3.7248032097068,-3.36750596920865));
#565=MECHANICAL_DESIGN_GEOMETRIC_PRESENTATION_REPRESENTATION('',(#290,#291,
#292,#293,#294,#295,#296),#566);
#566=(
GEOMETRIC_REPRESENTATION_CONTEXT(3)
GLOBAL_UNCERTAINTY_ASSIGNED_CONTEXT((#571))
GLOBAL_UNIT_ASSIGNED_CONTEXT((#578,#577,#576))
REPRESENTATION_CONTEXT('Axle (long)','TOP_LEVEL_ASSEMBLY_PART')
);
#567=(
GEOMETRIC_REPRESENTATION_CONTEXT(3)
GLOBAL_UNCERTAINTY_ASSIGNED_CONTEXT((#572))
GLOBAL_UNIT_ASSIGNED_CONTEXT((#578,#577,#576))
REPRESENTATION_CONTEXT('Eccentric drive pin','COMPONENT_PART')
);
#568=(
GEOMETRIC_REPRESENTATION_CONTEXT(3)
GLOBAL_UNCERTAINTY_ASSIGNED_CONTEXT((#573))
GLOBAL_UNIT_ASSIGNED_CONTEXT((#578,#577,#576))
REPRESENTATION_CONTEXT('Crank web, large hole','COMPONENT_PART')
);
#569=(
GEOMETRIC_REPRESENTATION_CONTEXT(3)
GLOBAL_UNCERTAINTY_ASSIGNED_CONTEXT((#574))
GLOBAL_UNIT_ASSIGNED_CONTEXT((#578,#577,#576))
REPRESENTATION_CONTEXT('Crank Pin','COMPONENT_PART')
);
#570=(
GEOMETRIC_REPRESENTATION_CONTEXT(3)
GLOBAL_UNCERTAINTY_ASSIGNED_CONTEXT((#575))
GLOBAL_UNIT_ASSIGNED_CONTEXT((#578,#577,#576))
REPRESENTATION_CONTEXT('Split Axle (long)','COMPONENT_PART')
);
#571=UNCERTAINTY_MEASURE_WITH_UNIT(LENGTH_MEASURE(0.005),#578,
'DISTANCE_ACCURACY_VALUE','Maximum Tolerance applied to model');
#572=UNCERTAINTY_MEASURE_WITH_UNIT(LENGTH_MEASURE(0.005),#578,
'DISTANCE_ACCURACY_VALUE','Maximum Tolerance applied to model');
#573=UNCERTAINTY_MEASURE_WITH_UNIT(LENGTH_MEASURE(0.005),#578,
'DISTANCE_ACCURACY_VALUE','Maximum Tolerance applied to model');
#574=UNCERTAINTY_MEASURE_WITH_UNIT(LENGTH_MEASURE(0.005),#578,
'DISTANCE_ACCURACY_VALUE','Maximum Tolerance applied to model');
#575=UNCERTAINTY_MEASURE_WITH_UNIT(LENGTH_MEASURE(0.005),#578,
'DISTANCE_ACCURACY_VALUE','Maximum Tolerance applied to model');
#576=(
NAMED_UNIT(*)
SI_UNIT($,.STERADIAN.)
SOLID_ANGLE_UNIT()
);
#577=(
NAMED_UNIT(*)
PLANE_ANGLE_UNIT()
SI_UNIT($,.RADIAN.)
);
#578=(
LENGTH_UNIT()
NAMED_UNIT(*)
SI_UNIT(.MILLI.,.METRE.)
);
#579=PRODUCT_DEFINITION_SHAPE('','',#589);
#580=PRODUCT_DEFINITION_SHAPE('','',#590);
#581=PRODUCT_DEFINITION_SHAPE(' ','NAUO PRDDFN',#39);
#582=PRODUCT_DEFINITION_SHAPE('','',#591);
#583=PRODUCT_DEFINITION_SHAPE(' ','NAUO PRDDFN',#40);
#584=PRODUCT_DEFINITION_SHAPE('','',#592);
#585=PRODUCT_DEFINITION_SHAPE(' ','NAUO PRDDFN',#41);
#586=PRODUCT_DEFINITION_SHAPE(' ','NAUO PRDDFN',#42);
#587=PRODUCT_DEFINITION_SHAPE('','',#593);
#588=PRODUCT_DEFINITION_SHAPE(' ','NAUO PRDDFN',#43);
#589=PRODUCT_DEFINITION('','',#599,#594);
#590=PRODUCT_DEFINITION('','',#600,#595);
#591=PRODUCT_DEFINITION('','',#601,#596);
#592=PRODUCT_DEFINITION('','',#602,#597);
#593=PRODUCT_DEFINITION('','',#603,#598);
#594=PRODUCT_DEFINITION_CONTEXT('',#625,'design');
#595=PRODUCT_DEFINITION_CONTEXT('',#625,'design');
#596=PRODUCT_DEFINITION_CONTEXT('',#625,'design');
#597=PRODUCT_DEFINITION_CONTEXT('',#625,'design');
#598=PRODUCT_DEFINITION_CONTEXT('',#625,'design');
#599=PRODUCT_DEFINITION_FORMATION_WITH_SPECIFIED_SOURCE('','',#609,
 .NOT_KNOWN.);
#600=PRODUCT_DEFINITION_FORMATION_WITH_SPECIFIED_SOURCE('','',#610,
 .NOT_KNOWN.);
#601=PRODUCT_DEFINITION_FORMATION_WITH_SPECIFIED_SOURCE('','',#611,
 .NOT_KNOWN.);
#602=PRODUCT_DEFINITION_FORMATION_WITH_SPECIFIED_SOURCE('','',#612,
 .NOT_KNOWN.);
#603=PRODUCT_DEFINITION_FORMATION_WITH_SPECIFIED_SOURCE('','',#613,
 .NOT_KNOWN.);
#604=PRODUCT_RELATED_PRODUCT_CATEGORY('','',(#609));
#605=PRODUCT_RELATED_PRODUCT_CATEGORY('','',(#610));
#606=PRODUCT_RELATED_PRODUCT_CATEGORY('','',(#611));
#607=PRODUCT_RELATED_PRODUCT_CATEGORY('','',(#612));
#608=PRODUCT_RELATED_PRODUCT_CATEGORY('','',(#613));
#609=PRODUCT('Axle (long)','Axle (long)','Axle (long)',(#619));
#610=PRODUCT('Eccentric drive pin','Eccentric drive pin',
'Eccentric drive pin',(#620));
#611=PRODUCT('Crank web, large hole','Crank web, large hole',
'Crank web, large hole',(#621));
#612=PRODUCT('Crank Pin','Crank Pin','Crank Pin',(#622));
#613=PRODUCT('Split Axle (long)','Split Axle (long)',
'Split Axle (long)',(#623));
#614=PRODUCT_CATEGORY('','');
#615=PRODUCT_CATEGORY('','');
#616=PRODUCT_CATEGORY('','');
#617=PRODUCT_CATEGORY('','');
#618=PRODUCT_CATEGORY('','');
#619=PRODUCT_CONTEXT('',#625,'mechanical');
#620=PRODUCT_CONTEXT('',#625,'mechanical');
#621=PRODUCT_CONTEXT('',#625,'mechanical');
#622=PRODUCT_CONTEXT('',#625,'mechanical');
#623=PRODUCT_CONTEXT('',#625,'mechanical');
#624=APPLICATION_PROTOCOL_DEFINITION('international standard',
'automotive_design',2010,#625);
#625=APPLICATION_CONTEXT(
'core data for automotive mechanical design processes');
ENDSEC;
END-ISO-10303-21;
