ISO-10303-21;
HEADER;
/* Generated by software containing ST-Developer
 * from STEP Tools, Inc. (www.steptools.com) 
 */
/* OPTION: strings as raw bytes, not using required /X/ escapes */

FILE_DESCRIPTION(
/* description */ ('ARM1G'),
/* implementation_level */ '2;1');

FILE_NAME(
/* name */ 'Clack valve complete',
/* time_stamp */ '2020-05-03T12:04:45+01:00',
/* author */ ('Keith Bucklitch'),
/* organization */ ('G1MRA'),
/* preprocessor_version */ 'ST-DEVELOPER v16.7',
/* originating_system */ 'Solid Edge',
/* authorisation */ 'Unknown');

FILE_SCHEMA (('AUTOMOTIVE_DESIGN {1 0 10303 214 3 1 1}'));
ENDSEC;

DATA;
#10=PROPERTY_DEFINITION_REPRESENTATION(#14,#12);
#11=PROPERTY_DEFINITION_REPRESENTATION(#15,#13);
#12=REPRESENTATION('',(#16),#513);
#13=REPRESENTATION('',(#17),#513);
#14=PROPERTY_DEFINITION('pmi validation property','',#524);
#15=PROPERTY_DEFINITION('pmi validation property','',#524);
#16=VALUE_REPRESENTATION_ITEM('number of annotations',COUNT_MEASURE(0.));
#17=VALUE_REPRESENTATION_ITEM('number of views',COUNT_MEASURE(0.));
#18=VERTEX_LOOP('',#179);
#19=SPHERICAL_SURFACE('',#339,1.984375);
#20=CONTEXT_DEPENDENT_SHAPE_REPRESENTATION(#26,#526);
#21=CONTEXT_DEPENDENT_SHAPE_REPRESENTATION(#27,#528);
#22=CONTEXT_DEPENDENT_SHAPE_REPRESENTATION(#28,#530);
#23=NEXT_ASSEMBLY_USAGE_OCCURRENCE('Clack valve nut','Clack valve nut',
'Clack valve nut',#531,#532,'');
#24=NEXT_ASSEMBLY_USAGE_OCCURRENCE('ball 5-32 inch','ball 5-32 inch',
'ball 5-32 inch',#531,#533,'');
#25=NEXT_ASSEMBLY_USAGE_OCCURRENCE('Clack valve body',
'Clack valve body','Clack valve body',#531,#534,'');
#26=(
REPRESENTATION_RELATIONSHIP(' ',' ',#317,#318)
REPRESENTATION_RELATIONSHIP_WITH_TRANSFORMATION(#29)
SHAPE_REPRESENTATION_RELATIONSHIP()
);
#27=(
REPRESENTATION_RELATIONSHIP(' ',' ',#319,#318)
REPRESENTATION_RELATIONSHIP_WITH_TRANSFORMATION(#30)
SHAPE_REPRESENTATION_RELATIONSHIP()
);
#28=(
REPRESENTATION_RELATIONSHIP(' ',' ',#320,#318)
REPRESENTATION_RELATIONSHIP_WITH_TRANSFORMATION(#31)
SHAPE_REPRESENTATION_RELATIONSHIP()
);
#29=ITEM_DEFINED_TRANSFORMATION(' ',' ',#321,#338);
#30=ITEM_DEFINED_TRANSFORMATION(' ',' ',#321,#340);
#31=ITEM_DEFINED_TRANSFORMATION(' ',' ',#321,#353);
#32=SHAPE_REPRESENTATION_RELATIONSHIP('','',#317,#35);
#33=SHAPE_REPRESENTATION_RELATIONSHIP('','',#319,#36);
#34=SHAPE_REPRESENTATION_RELATIONSHIP('','',#320,#37);
#35=ADVANCED_BREP_SHAPE_REPRESENTATION('',(#310),#514);
#36=ADVANCED_BREP_SHAPE_REPRESENTATION('',(#311),#515);
#37=ADVANCED_BREP_SHAPE_REPRESENTATION('',(#312),#516);
#38=CYLINDRICAL_SURFACE('',#334,2.38125);
#39=CYLINDRICAL_SURFACE('',#335,1.);
#40=CYLINDRICAL_SURFACE('',#344,3.175);
#41=CYLINDRICAL_SURFACE('',#349,1.15);
#42=CYLINDRICAL_SURFACE('',#352,2.778125);
#43=LINE('',#445,#61);
#44=LINE('',#448,#62);
#45=LINE('',#450,#63);
#46=LINE('',#452,#64);
#47=LINE('',#454,#65);
#48=LINE('',#456,#66);
#49=LINE('',#460,#67);
#50=LINE('',#463,#68);
#51=LINE('',#464,#69);
#52=LINE('',#466,#70);
#53=LINE('',#468,#71);
#54=LINE('',#470,#72);
#55=LINE('',#472,#73);
#56=LINE('',#474,#74);
#57=LINE('',#476,#75);
#58=LINE('',#478,#76);
#59=LINE('',#480,#77);
#60=LINE('',#482,#78);
#61=VECTOR('',#364,1000.);
#62=VECTOR('',#365,1000.);
#63=VECTOR('',#366,1000.);
#64=VECTOR('',#367,1000.);
#65=VECTOR('',#368,1000.);
#66=VECTOR('',#369,1000.);
#67=VECTOR('',#374,1000.);
#68=VECTOR('',#375,1000.);
#69=VECTOR('',#376,1000.);
#70=VECTOR('',#379,1000.);
#71=VECTOR('',#380,1000.);
#72=VECTOR('',#383,1000.);
#73=VECTOR('',#384,1000.);
#74=VECTOR('',#387,1000.);
#75=VECTOR('',#388,1000.);
#76=VECTOR('',#391,1000.);
#77=VECTOR('',#392,1000.);
#78=VECTOR('',#395,1000.);
#79=ORIENTED_EDGE('',*,*,#135,.T.);
#80=ORIENTED_EDGE('',*,*,#136,.F.);
#81=ORIENTED_EDGE('',*,*,#137,.T.);
#82=ORIENTED_EDGE('',*,*,#138,.T.);
#83=ORIENTED_EDGE('',*,*,#139,.T.);
#84=ORIENTED_EDGE('',*,*,#140,.T.);
#85=ORIENTED_EDGE('',*,*,#141,.T.);
#86=ORIENTED_EDGE('',*,*,#142,.T.);
#87=ORIENTED_EDGE('',*,*,#143,.F.);
#88=ORIENTED_EDGE('',*,*,#144,.T.);
#89=ORIENTED_EDGE('',*,*,#145,.F.);
#90=ORIENTED_EDGE('',*,*,#137,.F.);
#91=ORIENTED_EDGE('',*,*,#146,.T.);
#92=ORIENTED_EDGE('',*,*,#147,.T.);
#93=ORIENTED_EDGE('',*,*,#148,.F.);
#94=ORIENTED_EDGE('',*,*,#138,.F.);
#95=ORIENTED_EDGE('',*,*,#145,.T.);
#96=ORIENTED_EDGE('',*,*,#149,.T.);
#97=ORIENTED_EDGE('',*,*,#150,.F.);
#98=ORIENTED_EDGE('',*,*,#139,.F.);
#99=ORIENTED_EDGE('',*,*,#148,.T.);
#100=ORIENTED_EDGE('',*,*,#151,.T.);
#101=ORIENTED_EDGE('',*,*,#152,.F.);
#102=ORIENTED_EDGE('',*,*,#140,.F.);
#103=ORIENTED_EDGE('',*,*,#150,.T.);
#104=ORIENTED_EDGE('',*,*,#153,.T.);
#105=ORIENTED_EDGE('',*,*,#154,.F.);
#106=ORIENTED_EDGE('',*,*,#141,.F.);
#107=ORIENTED_EDGE('',*,*,#152,.T.);
#108=ORIENTED_EDGE('',*,*,#155,.T.);
#109=ORIENTED_EDGE('',*,*,#146,.F.);
#110=ORIENTED_EDGE('',*,*,#142,.F.);
#111=ORIENTED_EDGE('',*,*,#154,.T.);
#112=ORIENTED_EDGE('',*,*,#144,.F.);
#113=ORIENTED_EDGE('',*,*,#155,.F.);
#114=ORIENTED_EDGE('',*,*,#153,.F.);
#115=ORIENTED_EDGE('',*,*,#151,.F.);
#116=ORIENTED_EDGE('',*,*,#149,.F.);
#117=ORIENTED_EDGE('',*,*,#147,.F.);
#118=ORIENTED_EDGE('',*,*,#135,.F.);
#119=ORIENTED_EDGE('',*,*,#143,.T.);
#120=ORIENTED_EDGE('',*,*,#156,.F.);
#121=ORIENTED_EDGE('',*,*,#136,.T.);
#122=ORIENTED_EDGE('',*,*,#156,.T.);
#123=ORIENTED_EDGE('',*,*,#157,.T.);
#124=ORIENTED_EDGE('',*,*,#158,.T.);
#125=ORIENTED_EDGE('',*,*,#159,.F.);
#126=ORIENTED_EDGE('',*,*,#160,.T.);
#127=ORIENTED_EDGE('',*,*,#159,.T.);
#128=ORIENTED_EDGE('',*,*,#161,.F.);
#129=ORIENTED_EDGE('',*,*,#161,.T.);
#130=ORIENTED_EDGE('',*,*,#157,.F.);
#131=ORIENTED_EDGE('',*,*,#160,.F.);
#132=ORIENTED_EDGE('',*,*,#162,.F.);
#133=ORIENTED_EDGE('',*,*,#162,.T.);
#134=ORIENTED_EDGE('',*,*,#158,.F.);
#135=EDGE_CURVE('',#163,#163,#186,.T.);
#136=EDGE_CURVE('',#164,#164,#187,.T.);
#137=EDGE_CURVE('',#165,#166,#43,.T.);
#138=EDGE_CURVE('',#166,#167,#44,.T.);
#139=EDGE_CURVE('',#167,#168,#45,.T.);
#140=EDGE_CURVE('',#168,#169,#46,.T.);
#141=EDGE_CURVE('',#169,#170,#47,.T.);
#142=EDGE_CURVE('',#170,#165,#48,.T.);
#143=EDGE_CURVE('',#171,#171,#188,.T.);
#144=EDGE_CURVE('',#172,#173,#49,.T.);
#145=EDGE_CURVE('',#166,#173,#50,.T.);
#146=EDGE_CURVE('',#165,#172,#51,.T.);
#147=EDGE_CURVE('',#173,#174,#52,.T.);
#148=EDGE_CURVE('',#167,#174,#53,.T.);
#149=EDGE_CURVE('',#174,#175,#54,.T.);
#150=EDGE_CURVE('',#168,#175,#55,.T.);
#151=EDGE_CURVE('',#175,#176,#56,.T.);
#152=EDGE_CURVE('',#169,#176,#57,.T.);
#153=EDGE_CURVE('',#176,#177,#58,.T.);
#154=EDGE_CURVE('',#170,#177,#59,.T.);
#155=EDGE_CURVE('',#177,#172,#60,.T.);
#156=EDGE_CURVE('',#178,#178,#189,.T.);
#157=EDGE_CURVE('',#180,#180,#190,.T.);
#158=EDGE_CURVE('',#181,#181,#191,.T.);
#159=EDGE_CURVE('',#182,#182,#192,.T.);
#160=EDGE_CURVE('',#183,#183,#193,.F.);
#161=EDGE_CURVE('',#184,#184,#194,.T.);
#162=EDGE_CURVE('',#185,#185,#195,.T.);
#163=VERTEX_POINT('',#441);
#164=VERTEX_POINT('',#443);
#165=VERTEX_POINT('',#446);
#166=VERTEX_POINT('',#447);
#167=VERTEX_POINT('',#449);
#168=VERTEX_POINT('',#451);
#169=VERTEX_POINT('',#453);
#170=VERTEX_POINT('',#455);
#171=VERTEX_POINT('',#458);
#172=VERTEX_POINT('',#461);
#173=VERTEX_POINT('',#462);
#174=VERTEX_POINT('',#467);
#175=VERTEX_POINT('',#471);
#176=VERTEX_POINT('',#475);
#177=VERTEX_POINT('',#479);
#178=VERTEX_POINT('',#487);
#179=VERTEX_POINT('',#491);
#180=VERTEX_POINT('',#495);
#181=VERTEX_POINT('',#497);
#182=VERTEX_POINT('',#500);
#183=VERTEX_POINT('',#502);
#184=VERTEX_POINT('',#505);
#185=VERTEX_POINT('',#509);
#186=CIRCLE('',#323,2.38125);
#187=CIRCLE('',#324,1.);
#188=CIRCLE('',#326,2.38125);
#189=CIRCLE('',#336,1.);
#190=CIRCLE('',#342,1.15);
#191=CIRCLE('',#343,2.778125);
#192=CIRCLE('',#345,3.175);
#193=CIRCLE('',#346,3.175);
#194=CIRCLE('',#348,1.15);
#195=CIRCLE('',#351,2.778125);
#196=EDGE_LOOP('',(#79));
#197=EDGE_LOOP('',(#80));
#198=EDGE_LOOP('',(#81,#82,#83,#84,#85,#86));
#199=EDGE_LOOP('',(#87));
#200=EDGE_LOOP('',(#88,#89,#90,#91));
#201=EDGE_LOOP('',(#92,#93,#94,#95));
#202=EDGE_LOOP('',(#96,#97,#98,#99));
#203=EDGE_LOOP('',(#100,#101,#102,#103));
#204=EDGE_LOOP('',(#104,#105,#106,#107));
#205=EDGE_LOOP('',(#108,#109,#110,#111));
#206=EDGE_LOOP('',(#112,#113,#114,#115,#116,#117));
#207=EDGE_LOOP('',(#118));
#208=EDGE_LOOP('',(#119));
#209=EDGE_LOOP('',(#120));
#210=EDGE_LOOP('',(#121));
#211=EDGE_LOOP('',(#122));
#212=EDGE_LOOP('',(#123));
#213=EDGE_LOOP('',(#124));
#214=EDGE_LOOP('',(#125));
#215=EDGE_LOOP('',(#126));
#216=EDGE_LOOP('',(#127));
#217=EDGE_LOOP('',(#128));
#218=EDGE_LOOP('',(#129));
#219=EDGE_LOOP('',(#130));
#220=EDGE_LOOP('',(#131));
#221=EDGE_LOOP('',(#132));
#222=EDGE_LOOP('',(#133));
#223=EDGE_LOOP('',(#134));
#224=FACE_BOUND('',#196,.T.);
#225=FACE_BOUND('',#197,.T.);
#226=FACE_BOUND('',#198,.T.);
#227=FACE_BOUND('',#199,.T.);
#228=FACE_BOUND('',#200,.T.);
#229=FACE_BOUND('',#201,.T.);
#230=FACE_BOUND('',#202,.T.);
#231=FACE_BOUND('',#203,.T.);
#232=FACE_BOUND('',#204,.T.);
#233=FACE_BOUND('',#205,.T.);
#234=FACE_BOUND('',#206,.T.);
#235=FACE_BOUND('',#207,.T.);
#236=FACE_BOUND('',#208,.T.);
#237=FACE_BOUND('',#209,.T.);
#238=FACE_BOUND('',#210,.T.);
#239=FACE_BOUND('',#211,.T.);
#240=FACE_BOUND('',#18,.T.);
#241=FACE_BOUND('',#212,.T.);
#242=FACE_BOUND('',#213,.T.);
#243=FACE_BOUND('',#214,.T.);
#244=FACE_BOUND('',#215,.T.);
#245=FACE_BOUND('',#216,.T.);
#246=FACE_BOUND('',#217,.T.);
#247=FACE_BOUND('',#218,.T.);
#248=FACE_BOUND('',#219,.T.);
#249=FACE_BOUND('',#220,.T.);
#250=FACE_BOUND('',#221,.T.);
#251=FACE_BOUND('',#222,.T.);
#252=FACE_BOUND('',#223,.T.);
#253=PLANE('',#322);
#254=PLANE('',#325);
#255=PLANE('',#327);
#256=PLANE('',#328);
#257=PLANE('',#329);
#258=PLANE('',#330);
#259=PLANE('',#331);
#260=PLANE('',#332);
#261=PLANE('',#333);
#262=PLANE('',#337);
#263=PLANE('',#341);
#264=PLANE('',#347);
#265=PLANE('',#350);
#266=ADVANCED_FACE('',(#224,#225),#253,.T.);
#267=ADVANCED_FACE('',(#226,#227),#254,.T.);
#268=ADVANCED_FACE('',(#228),#255,.F.);
#269=ADVANCED_FACE('',(#229),#256,.F.);
#270=ADVANCED_FACE('',(#230),#257,.F.);
#271=ADVANCED_FACE('',(#231),#258,.F.);
#272=ADVANCED_FACE('',(#232),#259,.F.);
#273=ADVANCED_FACE('',(#233),#260,.F.);
#274=ADVANCED_FACE('',(#234),#261,.F.);
#275=ADVANCED_FACE('',(#235,#236),#38,.T.);
#276=ADVANCED_FACE('',(#237,#238),#39,.T.);
#277=ADVANCED_FACE('',(#239),#262,.T.);
#278=ADVANCED_FACE('',(#240),#19,.T.);
#279=ADVANCED_FACE('',(#241,#242),#263,.F.);
#280=ADVANCED_FACE('',(#243,#244),#40,.T.);
#281=ADVANCED_FACE('',(#245,#246),#264,.T.);
#282=ADVANCED_FACE('',(#247,#248),#41,.F.);
#283=ADVANCED_FACE('',(#249,#250),#265,.T.);
#284=ADVANCED_FACE('',(#251,#252),#42,.T.);
#285=CLOSED_SHELL('',(#266,#267,#268,#269,#270,#271,#272,#273,#274,#275,
#276,#277));
#286=CLOSED_SHELL('',(#278));
#287=CLOSED_SHELL('',(#279,#280,#281,#282,#283,#284));
#288=STYLED_ITEM('',(#291),#310);
#289=STYLED_ITEM('',(#292),#311);
#290=STYLED_ITEM('',(#293),#312);
#291=PRESENTATION_STYLE_ASSIGNMENT((#294));
#292=PRESENTATION_STYLE_ASSIGNMENT((#295));
#293=PRESENTATION_STYLE_ASSIGNMENT((#296));
#294=SURFACE_STYLE_USAGE(.BOTH.,#297);
#295=SURFACE_STYLE_USAGE(.BOTH.,#298);
#296=SURFACE_STYLE_USAGE(.BOTH.,#299);
#297=SURFACE_SIDE_STYLE('',(#300));
#298=SURFACE_SIDE_STYLE('',(#301));
#299=SURFACE_SIDE_STYLE('',(#302));
#300=SURFACE_STYLE_FILL_AREA(#303);
#301=SURFACE_STYLE_FILL_AREA(#304);
#302=SURFACE_STYLE_FILL_AREA(#305);
#303=FILL_AREA_STYLE('',(#306));
#304=FILL_AREA_STYLE('',(#307));
#305=FILL_AREA_STYLE('',(#308));
#306=FILL_AREA_STYLE_COLOUR('',#309);
#307=FILL_AREA_STYLE_COLOUR('',#309);
#308=FILL_AREA_STYLE_COLOUR('',#309);
#309=COLOUR_RGB('',0.690196096897125,0.690196096897125,0.690196096897125);
#310=MANIFOLD_SOLID_BREP('Clack valve nut',#285);
#311=MANIFOLD_SOLID_BREP('ball 5-32 inch',#286);
#312=MANIFOLD_SOLID_BREP('Clack valve body',#287);
#313=SHAPE_DEFINITION_REPRESENTATION(#525,#317);
#314=SHAPE_DEFINITION_REPRESENTATION(#524,#318);
#315=SHAPE_DEFINITION_REPRESENTATION(#527,#319);
#316=SHAPE_DEFINITION_REPRESENTATION(#529,#320);
#317=SHAPE_REPRESENTATION('Clack valve nut',(#321),#514);
#318=SHAPE_REPRESENTATION('Clack valve complete',(#321,#338,#340,#353),
#513);
#319=SHAPE_REPRESENTATION('ball 5-32 inch',(#321),#515);
#320=SHAPE_REPRESENTATION('Clack valve body',(#321),#516);
#321=AXIS2_PLACEMENT_3D('',#438,#354,#355);
#322=AXIS2_PLACEMENT_3D('',#439,#356,#357);
#323=AXIS2_PLACEMENT_3D('',#440,#358,#359);
#324=AXIS2_PLACEMENT_3D('',#442,#360,#361);
#325=AXIS2_PLACEMENT_3D('',#444,#362,#363);
#326=AXIS2_PLACEMENT_3D('',#457,#370,#371);
#327=AXIS2_PLACEMENT_3D('',#459,#372,#373);
#328=AXIS2_PLACEMENT_3D('',#465,#377,#378);
#329=AXIS2_PLACEMENT_3D('',#469,#381,#382);
#330=AXIS2_PLACEMENT_3D('',#473,#385,#386);
#331=AXIS2_PLACEMENT_3D('',#477,#389,#390);
#332=AXIS2_PLACEMENT_3D('',#481,#393,#394);
#333=AXIS2_PLACEMENT_3D('',#483,#396,#397);
#334=AXIS2_PLACEMENT_3D('',#484,#398,#399);
#335=AXIS2_PLACEMENT_3D('',#485,#400,#401);
#336=AXIS2_PLACEMENT_3D('',#486,#402,#403);
#337=AXIS2_PLACEMENT_3D('',#488,#404,#405);
#338=AXIS2_PLACEMENT_3D('',#489,#406,#407);
#339=AXIS2_PLACEMENT_3D('',#490,#408,#409);
#340=AXIS2_PLACEMENT_3D('',#492,#410,#411);
#341=AXIS2_PLACEMENT_3D('',#493,#412,#413);
#342=AXIS2_PLACEMENT_3D('',#494,#414,#415);
#343=AXIS2_PLACEMENT_3D('',#496,#416,#417);
#344=AXIS2_PLACEMENT_3D('',#498,#418,#419);
#345=AXIS2_PLACEMENT_3D('',#499,#420,#421);
#346=AXIS2_PLACEMENT_3D('',#501,#422,#423);
#347=AXIS2_PLACEMENT_3D('',#503,#424,#425);
#348=AXIS2_PLACEMENT_3D('',#504,#426,#427);
#349=AXIS2_PLACEMENT_3D('',#506,#428,#429);
#350=AXIS2_PLACEMENT_3D('',#507,#430,#431);
#351=AXIS2_PLACEMENT_3D('',#508,#432,#433);
#352=AXIS2_PLACEMENT_3D('',#510,#434,#435);
#353=AXIS2_PLACEMENT_3D('',#511,#436,#437);
#354=DIRECTION('',(0.,0.,1.));
#355=DIRECTION('',(1.,0.,0.));
#356=DIRECTION('',(0.,1.,0.));
#357=DIRECTION('',(0.,0.,1.));
#358=DIRECTION('',(0.,1.,0.));
#359=DIRECTION('',(0.,0.,1.));
#360=DIRECTION('',(0.,1.,0.));
#361=DIRECTION('',(0.,0.,1.));
#362=DIRECTION('',(0.,1.,0.));
#363=DIRECTION('',(0.,0.,1.));
#364=DIRECTION('',(0.999706998288606,0.,-0.0242057342955084));
#365=DIRECTION('',(0.478890718327136,0.,-0.877874524006774));
#366=DIRECTION('',(-0.520816279961469,0.,-0.853668789711266));
#367=DIRECTION('',(-0.999706998288606,0.,0.0242057342955084));
#368=DIRECTION('',(-0.478890718327137,0.,0.877874524006773));
#369=DIRECTION('',(0.52081627996147,0.,0.853668789711265));
#370=DIRECTION('',(0.,1.,0.));
#371=DIRECTION('',(0.,0.,1.));
#372=DIRECTION('',(-0.0242057342955084,0.,-0.999706998288606));
#373=DIRECTION('',(-0.999706998288606,0.,0.0242057342955084));
#374=DIRECTION('',(0.999706998288606,0.,-0.0242057342955084));
#375=DIRECTION('',(0.,-1.,0.));
#376=DIRECTION('',(0.,-1.,0.));
#377=DIRECTION('',(-0.877874524006774,0.,-0.478890718327136));
#378=DIRECTION('',(-0.478890718327136,0.,0.877874524006774));
#379=DIRECTION('',(0.478890718327136,0.,-0.877874524006774));
#380=DIRECTION('',(0.,-1.,0.));
#381=DIRECTION('',(-0.853668789711265,0.,0.520816279961469));
#382=DIRECTION('',(0.520816279961469,0.,0.853668789711266));
#383=DIRECTION('',(-0.520816279961469,0.,-0.853668789711266));
#384=DIRECTION('',(0.,-1.,0.));
#385=DIRECTION('',(0.0242057342955084,0.,0.999706998288606));
#386=DIRECTION('',(0.999706998288606,0.,-0.0242057342955084));
#387=DIRECTION('',(-0.999706998288606,0.,0.0242057342955084));
#388=DIRECTION('',(0.,-1.,0.));
#389=DIRECTION('',(0.877874524006773,0.,0.478890718327137));
#390=DIRECTION('',(0.478890718327137,0.,-0.877874524006773));
#391=DIRECTION('',(-0.478890718327137,0.,0.877874524006773));
#392=DIRECTION('',(0.,-1.,0.));
#393=DIRECTION('',(0.853668789711265,0.,-0.52081627996147));
#394=DIRECTION('',(-0.52081627996147,0.,-0.853668789711265));
#395=DIRECTION('',(0.52081627996147,0.,0.853668789711265));
#396=DIRECTION('',(0.,1.,0.));
#397=DIRECTION('',(0.,0.,1.));
#398=DIRECTION('',(0.,-1.,0.));
#399=DIRECTION('',(0.,0.,-1.));
#400=DIRECTION('',(0.,-1.,0.));
#401=DIRECTION('',(0.,0.,-1.));
#402=DIRECTION('',(0.,1.,0.));
#403=DIRECTION('',(0.,0.,1.));
#404=DIRECTION('',(0.,1.,0.));
#405=DIRECTION('',(0.,0.,1.));
#406=DIRECTION('',(-0.81554058321359,-7.30236205688649E-18,-0.578699885200989));
#407=DIRECTION('',(0.578699885200989,-1.56125112837912E-17,-0.81554058321359));
#408=DIRECTION('',(0.,-1.,0.));
#409=DIRECTION('',(-1.,0.,0.));
#410=DIRECTION('',(0.,0.,1.));
#411=DIRECTION('',(1.,0.,0.));
#412=DIRECTION('',(1.,0.,0.));
#413=DIRECTION('',(0.,0.,-1.));
#414=DIRECTION('',(1.,0.,0.));
#415=DIRECTION('',(0.,0.,-1.));
#416=DIRECTION('',(-1.,0.,0.));
#417=DIRECTION('',(0.,0.,1.));
#418=DIRECTION('',(1.,0.,0.));
#419=DIRECTION('',(0.,0.,-1.));
#420=DIRECTION('',(1.,0.,0.));
#421=DIRECTION('',(0.,0.,-1.));
#422=DIRECTION('',(-1.,0.,0.));
#423=DIRECTION('',(0.,0.,1.));
#424=DIRECTION('',(1.,0.,0.));
#425=DIRECTION('',(0.,0.,-1.));
#426=DIRECTION('',(1.,0.,0.));
#427=DIRECTION('',(0.,0.,-1.));
#428=DIRECTION('',(-1.,0.,0.));
#429=DIRECTION('',(0.,0.,1.));
#430=DIRECTION('',(-1.,0.,0.));
#431=DIRECTION('',(0.,0.,1.));
#432=DIRECTION('',(-1.,0.,0.));
#433=DIRECTION('',(0.,0.,1.));
#434=DIRECTION('',(-1.,0.,0.));
#435=DIRECTION('',(0.,0.,1.));
#436=DIRECTION('',(0.,0.,1.));
#437=DIRECTION('',(1.,0.,0.));
#438=CARTESIAN_POINT('',(0.,0.,0.));
#439=CARTESIAN_POINT('',(0.,6.,0.));
#440=CARTESIAN_POINT('',(0.,6.,0.));
#441=CARTESIAN_POINT('',(0.,6.,2.38125));
#442=CARTESIAN_POINT('',(0.,6.,0.));
#443=CARTESIAN_POINT('',(0.,6.,1.));
#444=CARTESIAN_POINT('',(1.90940321340648,3.,3.12969850016998));
#445=CARTESIAN_POINT('',(-1.75569680063004,3.,3.21844093896265));
#446=CARTESIAN_POINT('',(-1.75569680063004,3.,3.21844093896265));
#447=CARTESIAN_POINT('',(1.90940321340648,3.,3.12969850016998));
#448=CARTESIAN_POINT('',(1.90940321340648,3.,3.12969850016998));
#449=CARTESIAN_POINT('',(3.6651000140365,3.,-0.0887424387926854));
#450=CARTESIAN_POINT('',(3.6651000140365,3.,-0.0887424387926854));
#451=CARTESIAN_POINT('',(1.75569680063001,3.,-3.21844093896267));
#452=CARTESIAN_POINT('',(1.75569680063001,3.,-3.21844093896267));
#453=CARTESIAN_POINT('',(-1.90940321340651,3.,-3.12969850017));
#454=CARTESIAN_POINT('',(-1.90940321340651,3.,-3.12969850017));
#455=CARTESIAN_POINT('',(-3.66510001403654,3.,0.0887424387926689));
#456=CARTESIAN_POINT('',(-3.66510001403654,3.,0.0887424387926689));
#457=CARTESIAN_POINT('',(0.,3.,0.));
#458=CARTESIAN_POINT('',(0.,3.,2.38125));
#459=CARTESIAN_POINT('',(-1.75569680063004,3.,3.21844093896265));
#460=CARTESIAN_POINT('',(-1.75569680063004,0.,3.21844093896265));
#461=CARTESIAN_POINT('',(-1.75569680063004,0.,3.21844093896265));
#462=CARTESIAN_POINT('',(1.90940321340648,0.,3.12969850016998));
#463=CARTESIAN_POINT('',(1.90940321340648,3.,3.12969850016998));
#464=CARTESIAN_POINT('',(-1.75569680063004,3.,3.21844093896265));
#465=CARTESIAN_POINT('',(1.90940321340648,3.,3.12969850016998));
#466=CARTESIAN_POINT('',(1.90940321340648,0.,3.12969850016998));
#467=CARTESIAN_POINT('',(3.6651000140365,0.,-0.0887424387926854));
#468=CARTESIAN_POINT('',(3.6651000140365,3.,-0.0887424387926854));
#469=CARTESIAN_POINT('',(3.6651000140365,3.,-0.0887424387926854));
#470=CARTESIAN_POINT('',(3.6651000140365,0.,-0.0887424387926854));
#471=CARTESIAN_POINT('',(1.75569680063001,0.,-3.21844093896267));
#472=CARTESIAN_POINT('',(1.75569680063001,3.,-3.21844093896267));
#473=CARTESIAN_POINT('',(1.75569680063001,3.,-3.21844093896267));
#474=CARTESIAN_POINT('',(1.75569680063001,0.,-3.21844093896267));
#475=CARTESIAN_POINT('',(-1.90940321340651,0.,-3.12969850017));
#476=CARTESIAN_POINT('',(-1.90940321340651,3.,-3.12969850017));
#477=CARTESIAN_POINT('',(-1.90940321340651,3.,-3.12969850017));
#478=CARTESIAN_POINT('',(-1.90940321340651,0.,-3.12969850017));
#479=CARTESIAN_POINT('',(-3.66510001403654,0.,0.0887424387926689));
#480=CARTESIAN_POINT('',(-3.66510001403654,3.,0.0887424387926689));
#481=CARTESIAN_POINT('',(-3.66510001403654,3.,0.0887424387926689));
#482=CARTESIAN_POINT('',(-3.66510001403654,0.,0.0887424387926689));
#483=CARTESIAN_POINT('',(1.90940321340648,0.,3.12969850016998));
#484=CARTESIAN_POINT('',(0.,6.,0.));
#485=CARTESIAN_POINT('',(0.,7.,0.));
#486=CARTESIAN_POINT('',(0.,7.,0.));
#487=CARTESIAN_POINT('',(0.,7.,1.));
#488=CARTESIAN_POINT('',(0.,7.,0.));
#489=CARTESIAN_POINT('',(-4.33680868994202E-16,17.5,-8.67361737988404E-16));
#490=CARTESIAN_POINT('',(0.,1.984375,0.));
#491=CARTESIAN_POINT('',(-1.21507924602901E-16,3.96875,0.));
#492=CARTESIAN_POINT('',(0.118962941094369,5.1624859475005,0.0385728694709541));
#493=CARTESIAN_POINT('',(-15.6853009259259,8.75,0.));
#494=CARTESIAN_POINT('',(-15.6853009259259,8.75,0.));
#495=CARTESIAN_POINT('',(-15.6853009259259,8.75,-1.15));
#496=CARTESIAN_POINT('',(-15.6853009259259,8.75,0.));
#497=CARTESIAN_POINT('',(-15.6853009259259,8.75,2.778125));
#498=CARTESIAN_POINT('',(-15.6853009259259,8.75,0.));
#499=CARTESIAN_POINT('',(-3.18530092592593,8.75,0.));
#500=CARTESIAN_POINT('',(-3.18530092592593,8.75,-3.175));
#501=CARTESIAN_POINT('',(-6.68530092592593,8.75,0.));
#502=CARTESIAN_POINT('',(-6.68530092592593,8.75,3.175));
#503=CARTESIAN_POINT('',(-3.18530092592593,8.75,0.));
#504=CARTESIAN_POINT('',(-3.18530092592593,8.75,0.));
#505=CARTESIAN_POINT('',(-3.18530092592593,8.75,-1.15));
#506=CARTESIAN_POINT('',(3.176,8.75,0.));
#507=CARTESIAN_POINT('',(-6.68530092592593,7.25,0.));
#508=CARTESIAN_POINT('',(-6.68530092592593,8.75,0.));
#509=CARTESIAN_POINT('',(-6.68530092592593,8.75,2.778125));
#510=CARTESIAN_POINT('',(-6.68530092592593,8.75,0.));
#511=CARTESIAN_POINT('',(0.,0.,0.));
#512=MECHANICAL_DESIGN_GEOMETRIC_PRESENTATION_REPRESENTATION('',(#288,#289,
#290),#513);
#513=(
GEOMETRIC_REPRESENTATION_CONTEXT(3)
GLOBAL_UNCERTAINTY_ASSIGNED_CONTEXT((#517))
GLOBAL_UNIT_ASSIGNED_CONTEXT((#523,#522,#521))
REPRESENTATION_CONTEXT('Clack valve complete','TOP_LEVEL_ASSEMBLY_PART')
);
#514=(
GEOMETRIC_REPRESENTATION_CONTEXT(3)
GLOBAL_UNCERTAINTY_ASSIGNED_CONTEXT((#518))
GLOBAL_UNIT_ASSIGNED_CONTEXT((#523,#522,#521))
REPRESENTATION_CONTEXT('Clack valve nut','COMPONENT_PART')
);
#515=(
GEOMETRIC_REPRESENTATION_CONTEXT(3)
GLOBAL_UNCERTAINTY_ASSIGNED_CONTEXT((#519))
GLOBAL_UNIT_ASSIGNED_CONTEXT((#523,#522,#521))
REPRESENTATION_CONTEXT('ball 5-32 inch','COMPONENT_PART')
);
#516=(
GEOMETRIC_REPRESENTATION_CONTEXT(3)
GLOBAL_UNCERTAINTY_ASSIGNED_CONTEXT((#520))
GLOBAL_UNIT_ASSIGNED_CONTEXT((#523,#522,#521))
REPRESENTATION_CONTEXT('Clack valve body','COMPONENT_PART')
);
#517=UNCERTAINTY_MEASURE_WITH_UNIT(LENGTH_MEASURE(0.005),#523,
'DISTANCE_ACCURACY_VALUE','Maximum Tolerance applied to model');
#518=UNCERTAINTY_MEASURE_WITH_UNIT(LENGTH_MEASURE(0.005),#523,
'DISTANCE_ACCURACY_VALUE','Maximum Tolerance applied to model');
#519=UNCERTAINTY_MEASURE_WITH_UNIT(LENGTH_MEASURE(0.005),#523,
'DISTANCE_ACCURACY_VALUE','Maximum Tolerance applied to model');
#520=UNCERTAINTY_MEASURE_WITH_UNIT(LENGTH_MEASURE(0.005),#523,
'DISTANCE_ACCURACY_VALUE','Maximum Tolerance applied to model');
#521=(
NAMED_UNIT(*)
SI_UNIT($,.STERADIAN.)
SOLID_ANGLE_UNIT()
);
#522=(
NAMED_UNIT(*)
PLANE_ANGLE_UNIT()
SI_UNIT($,.RADIAN.)
);
#523=(
LENGTH_UNIT()
NAMED_UNIT(*)
SI_UNIT(.MILLI.,.METRE.)
);
#524=PRODUCT_DEFINITION_SHAPE('','',#531);
#525=PRODUCT_DEFINITION_SHAPE('','',#532);
#526=PRODUCT_DEFINITION_SHAPE(' ','NAUO PRDDFN',#23);
#527=PRODUCT_DEFINITION_SHAPE('','',#533);
#528=PRODUCT_DEFINITION_SHAPE(' ','NAUO PRDDFN',#24);
#529=PRODUCT_DEFINITION_SHAPE('','',#534);
#530=PRODUCT_DEFINITION_SHAPE(' ','NAUO PRDDFN',#25);
#531=PRODUCT_DEFINITION('','',#539,#535);
#532=PRODUCT_DEFINITION('','',#540,#536);
#533=PRODUCT_DEFINITION('','',#541,#537);
#534=PRODUCT_DEFINITION('','',#542,#538);
#535=PRODUCT_DEFINITION_CONTEXT('',#560,'design');
#536=PRODUCT_DEFINITION_CONTEXT('',#560,'design');
#537=PRODUCT_DEFINITION_CONTEXT('',#560,'design');
#538=PRODUCT_DEFINITION_CONTEXT('',#560,'design');
#539=PRODUCT_DEFINITION_FORMATION_WITH_SPECIFIED_SOURCE('','',#547,
 .NOT_KNOWN.);
#540=PRODUCT_DEFINITION_FORMATION_WITH_SPECIFIED_SOURCE('','',#548,
 .NOT_KNOWN.);
#541=PRODUCT_DEFINITION_FORMATION_WITH_SPECIFIED_SOURCE('','',#549,
 .NOT_KNOWN.);
#542=PRODUCT_DEFINITION_FORMATION_WITH_SPECIFIED_SOURCE('','',#550,
 .NOT_KNOWN.);
#543=PRODUCT_RELATED_PRODUCT_CATEGORY('','',(#547));
#544=PRODUCT_RELATED_PRODUCT_CATEGORY('','',(#548));
#545=PRODUCT_RELATED_PRODUCT_CATEGORY('','',(#549));
#546=PRODUCT_RELATED_PRODUCT_CATEGORY('','',(#550));
#547=PRODUCT('Clack valve complete','Clack valve complete',
'Clack valve complete',(#555));
#548=PRODUCT('Clack valve nut','Clack valve nut','Clack valve nut',(#556));
#549=PRODUCT('ball 5-32 inch','ball 5-32 inch','ball 5-32 inch',(#557));
#550=PRODUCT('Clack valve body','Clack valve body','Clack valve body',(#558));
#551=PRODUCT_CATEGORY('','');
#552=PRODUCT_CATEGORY('','');
#553=PRODUCT_CATEGORY('','');
#554=PRODUCT_CATEGORY('','');
#555=PRODUCT_CONTEXT('',#560,'mechanical');
#556=PRODUCT_CONTEXT('',#560,'mechanical');
#557=PRODUCT_CONTEXT('',#560,'mechanical');
#558=PRODUCT_CONTEXT('',#560,'mechanical');
#559=APPLICATION_PROTOCOL_DEFINITION('international standard',
'automotive_design',2010,#560);
#560=APPLICATION_CONTEXT(
'core data for automotive mechanical design processes');
ENDSEC;
END-ISO-10303-21;
